ISO-10303-21;
HEADER;
/* Generated by software containing ST-Developer
 * from STEP Tools, Inc. (www.steptools.com) 
 */

FILE_DESCRIPTION(
/* description */ (''),
/* implementation_level */ '2;1');

FILE_NAME(
/* name */ 
'C:\\eigene Dateien\\CAD-Bereich\\3D-Zeichnungsdateien\\3D-Stepdateien
\\Verkauf\\XX1DXXUXXM5NIRO.stp',
/* time_stamp */ '2019-05-14T08:46:24+02:00',
/* author */ ('CADNEU'),
/* organization */ (''),
/* preprocessor_version */ 'ST-DEVELOPER v16.1',
/* originating_system */ 'Autodesk Inventor 2016',
/* authorisation */ '');

FILE_SCHEMA (('AUTOMOTIVE_DESIGN { 1 0 10303 214 3 1 1 }'));
ENDSEC;

DATA;
#10=MECHANICAL_DESIGN_GEOMETRIC_PRESENTATION_REPRESENTATION('',(#13),#501);
#11=SHAPE_REPRESENTATION_RELATIONSHIP('SRR','None',#510,#12);
#12=ADVANCED_BREP_SHAPE_REPRESENTATION('',(#14),#500);
#13=STYLED_ITEM('',(#519),#14);
#14=MANIFOLD_SOLID_BREP('Volumenk\X\F6rper1',#277);
#15=SPHERICAL_SURFACE('',#313,5.5);
#16=(
BOUNDED_CURVE()
B_SPLINE_CURVE(2,(#436,#437,#438),.UNSPECIFIED.,.F.,.F.)
B_SPLINE_CURVE_WITH_KNOTS((3,3),(0.,0.127289773724552),.UNSPECIFIED.)
CURVE()
GEOMETRIC_REPRESENTATION_ITEM()
RATIONAL_B_SPLINE_CURVE((1.,1.00463369409291,1.00461054827029))
REPRESENTATION_ITEM('')
);
#17=(
BOUNDED_CURVE()
B_SPLINE_CURVE(2,(#445,#446,#447),.UNSPECIFIED.,.F.,.F.)
B_SPLINE_CURVE_WITH_KNOTS((3,3),(0.126024440761648,0.2533142144862),
 .UNSPECIFIED.)
CURVE()
GEOMETRIC_REPRESENTATION_ITEM()
RATIONAL_B_SPLINE_CURVE((1.00461054827029,1.00463369409291,1.))
REPRESENTATION_ITEM('')
);
#18=(
BOUNDED_CURVE()
B_SPLINE_CURVE(2,(#472,#473,#474),.UNSPECIFIED.,.F.,.F.)
B_SPLINE_CURVE_WITH_KNOTS((3,3),(0.,0.127289773724552),.UNSPECIFIED.)
CURVE()
GEOMETRIC_REPRESENTATION_ITEM()
RATIONAL_B_SPLINE_CURVE((1.,1.00463369409291,1.00461054827029))
REPRESENTATION_ITEM('')
);
#19=(
BOUNDED_CURVE()
B_SPLINE_CURVE(2,(#481,#482,#483),.UNSPECIFIED.,.F.,.F.)
B_SPLINE_CURVE_WITH_KNOTS((3,3),(0.126024440761648,0.2533142144862),
 .UNSPECIFIED.)
CURVE()
GEOMETRIC_REPRESENTATION_ITEM()
RATIONAL_B_SPLINE_CURVE((1.00461054827029,1.00463369409291,1.))
REPRESENTATION_ITEM('')
);
#20=LINE('',#430,#28);
#21=LINE('',#433,#29);
#22=LINE('',#440,#30);
#23=LINE('',#444,#31);
#24=LINE('',#455,#32);
#25=LINE('',#458,#33);
#26=LINE('',#476,#34);
#27=LINE('',#480,#35);
#28=VECTOR('',#342,6.87386354243376);
#29=VECTOR('',#345,9.17677734751043);
#30=VECTOR('',#348,6.83493649053889);
#31=VECTOR('',#351,6.83493649053889);
#32=VECTOR('',#358,9.17677734751043);
#33=VECTOR('',#361,6.87386354243376);
#34=VECTOR('',#380,6.83493649053889);
#35=VECTOR('',#383,6.83493649053889);
#36=ELLIPSE('',#288,12.0774736386075,6.97293265638062);
#37=ELLIPSE('',#289,12.0774736386075,6.97293265638062);
#38=ELLIPSE('',#294,12.0774736386074,6.97293265638061);
#39=ELLIPSE('',#295,12.0774736386074,6.97293265638061);
#40=PLANE('',#284);
#41=PLANE('',#287);
#42=PLANE('',#290);
#43=PLANE('',#293);
#44=PLANE('',#296);
#45=PLANE('',#304);
#46=PLANE('',#311);
#47=CYLINDRICAL_SURFACE('',#282,2.067);
#48=CYLINDRICAL_SURFACE('',#300,3.1);
#49=CYLINDRICAL_SURFACE('',#309,5.5);
#50=CYLINDRICAL_SURFACE('',#315,5.5);
#51=CYLINDRICAL_SURFACE('',#319,4.25);
#52=FACE_BOUND('',#81,.T.);
#53=FACE_BOUND('',#83,.T.);
#54=FACE_BOUND('',#85,.T.);
#55=FACE_BOUND('',#89,.T.);
#56=FACE_BOUND('',#93,.T.);
#57=FACE_BOUND('',#95,.T.);
#58=FACE_BOUND('',#97,.T.);
#59=FACE_BOUND('',#99,.T.);
#60=FACE_BOUND('',#103,.T.);
#61=FACE_BOUND('',#107,.T.);
#62=FACE_OUTER_BOUND('',#80,.T.);
#63=FACE_OUTER_BOUND('',#82,.T.);
#64=FACE_OUTER_BOUND('',#84,.T.);
#65=FACE_OUTER_BOUND('',#86,.T.);
#66=FACE_OUTER_BOUND('',#87,.T.);
#67=FACE_OUTER_BOUND('',#88,.T.);
#68=FACE_OUTER_BOUND('',#90,.T.);
#69=FACE_OUTER_BOUND('',#91,.T.);
#70=FACE_OUTER_BOUND('',#92,.T.);
#71=FACE_OUTER_BOUND('',#94,.T.);
#72=FACE_OUTER_BOUND('',#96,.T.);
#73=FACE_OUTER_BOUND('',#98,.T.);
#74=FACE_OUTER_BOUND('',#100,.T.);
#75=FACE_OUTER_BOUND('',#101,.T.);
#76=FACE_OUTER_BOUND('',#102,.T.);
#77=FACE_OUTER_BOUND('',#104,.T.);
#78=FACE_OUTER_BOUND('',#105,.T.);
#79=FACE_OUTER_BOUND('',#106,.T.);
#80=EDGE_LOOP('',(#184));
#81=EDGE_LOOP('',(#185));
#82=EDGE_LOOP('',(#186));
#83=EDGE_LOOP('',(#187));
#84=EDGE_LOOP('',(#188));
#85=EDGE_LOOP('',(#189));
#86=EDGE_LOOP('',(#190));
#87=EDGE_LOOP('',(#191,#192,#193,#194));
#88=EDGE_LOOP('',(#195,#196,#197,#198,#199,#200));
#89=EDGE_LOOP('',(#201));
#90=EDGE_LOOP('',(#202,#203,#204,#205));
#91=EDGE_LOOP('',(#206,#207));
#92=EDGE_LOOP('',(#208));
#93=EDGE_LOOP('',(#209));
#94=EDGE_LOOP('',(#210));
#95=EDGE_LOOP('',(#211));
#96=EDGE_LOOP('',(#212));
#97=EDGE_LOOP('',(#213));
#98=EDGE_LOOP('',(#214,#215,#216,#217,#218,#219));
#99=EDGE_LOOP('',(#220));
#100=EDGE_LOOP('',(#221,#222,#223,#224,#225,#226));
#101=EDGE_LOOP('',(#227,#228,#229,#230));
#102=EDGE_LOOP('',(#231,#232));
#103=EDGE_LOOP('',(#233,#234,#235,#236));
#104=EDGE_LOOP('',(#237,#238,#239,#240));
#105=EDGE_LOOP('',(#241,#242,#243,#244,#245,#246));
#106=EDGE_LOOP('',(#247));
#107=EDGE_LOOP('',(#248,#249,#250,#251));
#108=CIRCLE('',#280,2.067);
#109=CIRCLE('',#281,3.067);
#110=CIRCLE('',#283,2.067);
#111=CIRCLE('',#285,4.25);
#112=CIRCLE('',#291,5.29150262212918);
#113=CIRCLE('',#292,3.38867513459481);
#114=CIRCLE('',#297,4.25);
#115=CIRCLE('',#299,3.1);
#116=CIRCLE('',#301,3.1);
#117=CIRCLE('',#303,3.38867513459481);
#118=CIRCLE('',#305,5.29150262212918);
#119=CIRCLE('',#307,5.5);
#120=CIRCLE('',#308,4.25);
#121=CIRCLE('',#310,5.5);
#122=CIRCLE('',#312,4.25);
#123=CIRCLE('',#314,5.5);
#124=CIRCLE('',#316,5.5);
#125=CIRCLE('',#318,4.25);
#126=VERTEX_POINT('',#414);
#127=VERTEX_POINT('',#416);
#128=VERTEX_POINT('',#419);
#129=VERTEX_POINT('',#422);
#130=VERTEX_POINT('',#426);
#131=VERTEX_POINT('',#427);
#132=VERTEX_POINT('',#429);
#133=VERTEX_POINT('',#431);
#134=VERTEX_POINT('',#435);
#135=VERTEX_POINT('',#439);
#136=VERTEX_POINT('',#441);
#137=VERTEX_POINT('',#443);
#138=VERTEX_POINT('',#448);
#139=VERTEX_POINT('',#451);
#140=VERTEX_POINT('',#452);
#141=VERTEX_POINT('',#454);
#142=VERTEX_POINT('',#456);
#143=VERTEX_POINT('',#462);
#144=VERTEX_POINT('',#465);
#145=VERTEX_POINT('',#468);
#146=VERTEX_POINT('',#471);
#147=VERTEX_POINT('',#475);
#148=VERTEX_POINT('',#477);
#149=VERTEX_POINT('',#479);
#150=EDGE_CURVE('',#126,#126,#108,.T.);
#151=EDGE_CURVE('',#127,#127,#109,.T.);
#152=EDGE_CURVE('',#128,#128,#110,.T.);
#153=EDGE_CURVE('',#129,#129,#111,.T.);
#154=EDGE_CURVE('',#130,#131,#36,.T.);
#155=EDGE_CURVE('',#131,#132,#20,.T.);
#156=EDGE_CURVE('',#133,#132,#37,.F.);
#157=EDGE_CURVE('',#133,#130,#21,.T.);
#158=EDGE_CURVE('',#134,#133,#16,.T.);
#159=EDGE_CURVE('',#135,#134,#22,.T.);
#160=EDGE_CURVE('',#136,#135,#112,.T.);
#161=EDGE_CURVE('',#137,#136,#23,.T.);
#162=EDGE_CURVE('',#130,#137,#17,.T.);
#163=EDGE_CURVE('',#138,#138,#113,.T.);
#164=EDGE_CURVE('',#139,#140,#38,.F.);
#165=EDGE_CURVE('',#139,#141,#24,.T.);
#166=EDGE_CURVE('',#141,#142,#39,.T.);
#167=EDGE_CURVE('',#142,#140,#25,.T.);
#168=EDGE_CURVE('',#140,#142,#114,.T.);
#169=EDGE_CURVE('',#143,#143,#115,.T.);
#170=EDGE_CURVE('',#144,#144,#116,.T.);
#171=EDGE_CURVE('',#145,#145,#117,.T.);
#172=EDGE_CURVE('',#146,#139,#18,.T.);
#173=EDGE_CURVE('',#147,#146,#26,.T.);
#174=EDGE_CURVE('',#148,#147,#118,.T.);
#175=EDGE_CURVE('',#149,#148,#27,.T.);
#176=EDGE_CURVE('',#141,#149,#19,.T.);
#177=EDGE_CURVE('',#149,#134,#119,.T.);
#178=EDGE_CURVE('',#142,#132,#120,.T.);
#179=EDGE_CURVE('',#148,#135,#121,.T.);
#180=EDGE_CURVE('',#132,#131,#122,.T.);
#181=EDGE_CURVE('',#136,#147,#123,.T.);
#182=EDGE_CURVE('',#137,#146,#124,.T.);
#183=EDGE_CURVE('',#131,#140,#125,.T.);
#184=ORIENTED_EDGE('',*,*,#150,.T.);
#185=ORIENTED_EDGE('',*,*,#151,.T.);
#186=ORIENTED_EDGE('',*,*,#152,.F.);
#187=ORIENTED_EDGE('',*,*,#150,.F.);
#188=ORIENTED_EDGE('',*,*,#153,.T.);
#189=ORIENTED_EDGE('',*,*,#151,.F.);
#190=ORIENTED_EDGE('',*,*,#152,.T.);
#191=ORIENTED_EDGE('',*,*,#154,.T.);
#192=ORIENTED_EDGE('',*,*,#155,.T.);
#193=ORIENTED_EDGE('',*,*,#156,.F.);
#194=ORIENTED_EDGE('',*,*,#157,.T.);
#195=ORIENTED_EDGE('',*,*,#157,.F.);
#196=ORIENTED_EDGE('',*,*,#158,.F.);
#197=ORIENTED_EDGE('',*,*,#159,.F.);
#198=ORIENTED_EDGE('',*,*,#160,.F.);
#199=ORIENTED_EDGE('',*,*,#161,.F.);
#200=ORIENTED_EDGE('',*,*,#162,.F.);
#201=ORIENTED_EDGE('',*,*,#163,.F.);
#202=ORIENTED_EDGE('',*,*,#164,.F.);
#203=ORIENTED_EDGE('',*,*,#165,.T.);
#204=ORIENTED_EDGE('',*,*,#166,.T.);
#205=ORIENTED_EDGE('',*,*,#167,.T.);
#206=ORIENTED_EDGE('',*,*,#167,.F.);
#207=ORIENTED_EDGE('',*,*,#168,.F.);
#208=ORIENTED_EDGE('',*,*,#169,.T.);
#209=ORIENTED_EDGE('',*,*,#163,.T.);
#210=ORIENTED_EDGE('',*,*,#170,.F.);
#211=ORIENTED_EDGE('',*,*,#169,.F.);
#212=ORIENTED_EDGE('',*,*,#170,.T.);
#213=ORIENTED_EDGE('',*,*,#171,.T.);
#214=ORIENTED_EDGE('',*,*,#165,.F.);
#215=ORIENTED_EDGE('',*,*,#172,.F.);
#216=ORIENTED_EDGE('',*,*,#173,.F.);
#217=ORIENTED_EDGE('',*,*,#174,.F.);
#218=ORIENTED_EDGE('',*,*,#175,.F.);
#219=ORIENTED_EDGE('',*,*,#176,.F.);
#220=ORIENTED_EDGE('',*,*,#171,.F.);
#221=ORIENTED_EDGE('',*,*,#176,.T.);
#222=ORIENTED_EDGE('',*,*,#177,.T.);
#223=ORIENTED_EDGE('',*,*,#158,.T.);
#224=ORIENTED_EDGE('',*,*,#156,.T.);
#225=ORIENTED_EDGE('',*,*,#178,.F.);
#226=ORIENTED_EDGE('',*,*,#166,.F.);
#227=ORIENTED_EDGE('',*,*,#175,.T.);
#228=ORIENTED_EDGE('',*,*,#179,.T.);
#229=ORIENTED_EDGE('',*,*,#159,.T.);
#230=ORIENTED_EDGE('',*,*,#177,.F.);
#231=ORIENTED_EDGE('',*,*,#155,.F.);
#232=ORIENTED_EDGE('',*,*,#180,.F.);
#233=ORIENTED_EDGE('',*,*,#174,.T.);
#234=ORIENTED_EDGE('',*,*,#181,.F.);
#235=ORIENTED_EDGE('',*,*,#160,.T.);
#236=ORIENTED_EDGE('',*,*,#179,.F.);
#237=ORIENTED_EDGE('',*,*,#173,.T.);
#238=ORIENTED_EDGE('',*,*,#182,.F.);
#239=ORIENTED_EDGE('',*,*,#161,.T.);
#240=ORIENTED_EDGE('',*,*,#181,.T.);
#241=ORIENTED_EDGE('',*,*,#172,.T.);
#242=ORIENTED_EDGE('',*,*,#164,.T.);
#243=ORIENTED_EDGE('',*,*,#183,.F.);
#244=ORIENTED_EDGE('',*,*,#154,.F.);
#245=ORIENTED_EDGE('',*,*,#162,.T.);
#246=ORIENTED_EDGE('',*,*,#182,.T.);
#247=ORIENTED_EDGE('',*,*,#153,.F.);
#248=ORIENTED_EDGE('',*,*,#178,.T.);
#249=ORIENTED_EDGE('',*,*,#180,.T.);
#250=ORIENTED_EDGE('',*,*,#183,.T.);
#251=ORIENTED_EDGE('',*,*,#168,.T.);
#252=CONICAL_SURFACE('',#279,2.567,45.);
#253=CONICAL_SURFACE('',#286,1.0335,59.);
#254=CONICAL_SURFACE('',#298,3.24433756729741,30.0000000000001);
#255=CONICAL_SURFACE('',#302,3.24433756729741,30.0000000000001);
#256=CONICAL_SURFACE('',#306,4.875,30.);
#257=CONICAL_SURFACE('',#317,4.875,30.);
#258=ADVANCED_FACE('',(#62,#52),#252,.F.);
#259=ADVANCED_FACE('',(#63,#53),#47,.F.);
#260=ADVANCED_FACE('',(#64,#54),#40,.T.);
#261=ADVANCED_FACE('',(#65),#253,.F.);
#262=ADVANCED_FACE('',(#66),#41,.T.);
#263=ADVANCED_FACE('',(#67,#55),#42,.F.);
#264=ADVANCED_FACE('',(#68),#43,.T.);
#265=ADVANCED_FACE('',(#69),#44,.T.);
#266=ADVANCED_FACE('',(#70,#56),#254,.F.);
#267=ADVANCED_FACE('',(#71,#57),#48,.F.);
#268=ADVANCED_FACE('',(#72,#58),#255,.F.);
#269=ADVANCED_FACE('',(#73,#59),#45,.T.);
#270=ADVANCED_FACE('',(#74),#256,.T.);
#271=ADVANCED_FACE('',(#75),#49,.T.);
#272=ADVANCED_FACE('',(#76),#46,.F.);
#273=ADVANCED_FACE('',(#60),#15,.T.);
#274=ADVANCED_FACE('',(#77),#50,.T.);
#275=ADVANCED_FACE('',(#78),#257,.T.);
#276=ADVANCED_FACE('',(#79,#61),#51,.T.);
#277=CLOSED_SHELL('',(#258,#259,#260,#261,#262,#263,#264,#265,#266,#267,
#268,#269,#270,#271,#272,#273,#274,#275,#276));
#278=AXIS2_PLACEMENT_3D('placement',#412,#320,#321);
#279=AXIS2_PLACEMENT_3D('',#413,#322,#323);
#280=AXIS2_PLACEMENT_3D('',#415,#324,#325);
#281=AXIS2_PLACEMENT_3D('',#417,#326,#327);
#282=AXIS2_PLACEMENT_3D('',#418,#328,#329);
#283=AXIS2_PLACEMENT_3D('',#420,#330,#331);
#284=AXIS2_PLACEMENT_3D('',#421,#332,#333);
#285=AXIS2_PLACEMENT_3D('',#423,#334,#335);
#286=AXIS2_PLACEMENT_3D('',#424,#336,#337);
#287=AXIS2_PLACEMENT_3D('',#425,#338,#339);
#288=AXIS2_PLACEMENT_3D('',#428,#340,#341);
#289=AXIS2_PLACEMENT_3D('',#432,#343,#344);
#290=AXIS2_PLACEMENT_3D('',#434,#346,#347);
#291=AXIS2_PLACEMENT_3D('',#442,#349,#350);
#292=AXIS2_PLACEMENT_3D('',#449,#352,#353);
#293=AXIS2_PLACEMENT_3D('',#450,#354,#355);
#294=AXIS2_PLACEMENT_3D('',#453,#356,#357);
#295=AXIS2_PLACEMENT_3D('',#457,#359,#360);
#296=AXIS2_PLACEMENT_3D('',#459,#362,#363);
#297=AXIS2_PLACEMENT_3D('',#460,#364,#365);
#298=AXIS2_PLACEMENT_3D('',#461,#366,#367);
#299=AXIS2_PLACEMENT_3D('',#463,#368,#369);
#300=AXIS2_PLACEMENT_3D('',#464,#370,#371);
#301=AXIS2_PLACEMENT_3D('',#466,#372,#373);
#302=AXIS2_PLACEMENT_3D('',#467,#374,#375);
#303=AXIS2_PLACEMENT_3D('',#469,#376,#377);
#304=AXIS2_PLACEMENT_3D('',#470,#378,#379);
#305=AXIS2_PLACEMENT_3D('',#478,#381,#382);
#306=AXIS2_PLACEMENT_3D('',#484,#384,#385);
#307=AXIS2_PLACEMENT_3D('',#485,#386,#387);
#308=AXIS2_PLACEMENT_3D('',#486,#388,#389);
#309=AXIS2_PLACEMENT_3D('',#487,#390,#391);
#310=AXIS2_PLACEMENT_3D('',#488,#392,#393);
#311=AXIS2_PLACEMENT_3D('',#489,#394,#395);
#312=AXIS2_PLACEMENT_3D('',#490,#396,#397);
#313=AXIS2_PLACEMENT_3D('',#491,#398,#399);
#314=AXIS2_PLACEMENT_3D('',#492,#400,#401);
#315=AXIS2_PLACEMENT_3D('',#493,#402,#403);
#316=AXIS2_PLACEMENT_3D('',#494,#404,#405);
#317=AXIS2_PLACEMENT_3D('',#495,#406,#407);
#318=AXIS2_PLACEMENT_3D('',#496,#408,#409);
#319=AXIS2_PLACEMENT_3D('',#497,#410,#411);
#320=DIRECTION('axis',(0.,0.,1.));
#321=DIRECTION('refdir',(1.,0.,0.));
#322=DIRECTION('center_axis',(1.,0.,0.));
#323=DIRECTION('ref_axis',(0.,-1.,0.));
#324=DIRECTION('center_axis',(-1.,0.,0.));
#325=DIRECTION('ref_axis',(0.,-1.,0.));
#326=DIRECTION('center_axis',(1.,0.,0.));
#327=DIRECTION('ref_axis',(0.,-1.,0.));
#328=DIRECTION('center_axis',(1.,0.,0.));
#329=DIRECTION('ref_axis',(0.,1.,0.));
#330=DIRECTION('center_axis',(1.,0.,0.));
#331=DIRECTION('ref_axis',(0.,1.,0.));
#332=DIRECTION('center_axis',(1.,0.,0.));
#333=DIRECTION('ref_axis',(0.,0.,-1.));
#334=DIRECTION('center_axis',(1.,0.,0.));
#335=DIRECTION('ref_axis',(0.,1.,0.));
#336=DIRECTION('center_axis',(1.,0.,0.));
#337=DIRECTION('ref_axis',(0.,1.,0.));
#338=DIRECTION('center_axis',(-0.707106781186547,0.707106781186548,0.));
#339=DIRECTION('ref_axis',(0.,0.,1.));
#340=DIRECTION('center_axis',(-0.707106781186547,0.707106781186548,0.));
#341=DIRECTION('ref_axis',(-0.707106781186548,-0.707106781186547,-1.28650934984931E-16));
#342=DIRECTION('',(0.,0.,-1.));
#343=DIRECTION('center_axis',(-0.707106781186547,0.707106781186548,0.));
#344=DIRECTION('ref_axis',(-0.707106781186548,-0.707106781186547,-1.28650934984931E-16));
#345=DIRECTION('',(0.,0.,1.));
#346=DIRECTION('center_axis',(-3.21299655935875E-17,-1.,0.));
#347=DIRECTION('ref_axis',(0.,0.,-1.));
#348=DIRECTION('',(1.,0.,0.));
#349=DIRECTION('center_axis',(-3.21299655935875E-17,-1.,0.));
#350=DIRECTION('ref_axis',(0.,0.,1.));
#351=DIRECTION('',(-1.,0.,0.));
#352=DIRECTION('center_axis',(3.21299655935875E-17,1.,0.));
#353=DIRECTION('ref_axis',(1.,-3.21299655935875E-17,0.));
#354=DIRECTION('center_axis',(-0.707106781186548,-0.707106781186547,0.));
#355=DIRECTION('ref_axis',(0.,0.,1.));
#356=DIRECTION('center_axis',(-0.707106781186548,-0.707106781186547,0.));
#357=DIRECTION('ref_axis',(0.707106781186547,-0.707106781186548,0.));
#358=DIRECTION('',(0.,0.,-1.));
#359=DIRECTION('center_axis',(-0.707106781186548,-0.707106781186547,0.));
#360=DIRECTION('ref_axis',(0.707106781186547,-0.707106781186548,0.));
#361=DIRECTION('',(0.,0.,1.));
#362=DIRECTION('center_axis',(-1.,2.22044604925031E-16,0.));
#363=DIRECTION('ref_axis',(0.,0.,-1.));
#364=DIRECTION('center_axis',(1.,0.,0.));
#365=DIRECTION('ref_axis',(0.,1.,0.));
#366=DIRECTION('center_axis',(0.,1.,0.));
#367=DIRECTION('ref_axis',(1.,-1.42943234941824E-18,0.));
#368=DIRECTION('center_axis',(-3.21299655935875E-17,-1.,0.));
#369=DIRECTION('ref_axis',(1.,3.21299655935875E-17,0.));
#370=DIRECTION('center_axis',(3.21299655935875E-17,-1.,0.));
#371=DIRECTION('ref_axis',(1.,3.21299655935875E-17,0.));
#372=DIRECTION('center_axis',(-3.21299655935875E-17,1.,0.));
#373=DIRECTION('ref_axis',(-1.,-3.21299655935875E-17,0.));
#374=DIRECTION('center_axis',(0.,-1.,0.));
#375=DIRECTION('ref_axis',(-1.,-3.21299655935875E-17,0.));
#376=DIRECTION('center_axis',(3.21299655935875E-17,-1.,0.));
#377=DIRECTION('ref_axis',(-1.,-3.21299655935875E-17,0.));
#378=DIRECTION('center_axis',(3.21299655935875E-17,-1.,0.));
#379=DIRECTION('ref_axis',(0.,0.,-1.));
#380=DIRECTION('',(1.,0.,0.));
#381=DIRECTION('center_axis',(-3.21299655935875E-17,1.,0.));
#382=DIRECTION('ref_axis',(0.,0.,-1.));
#383=DIRECTION('',(-1.,0.,0.));
#384=DIRECTION('center_axis',(-1.,0.,0.));
#385=DIRECTION('ref_axis',(0.,1.,0.));
#386=DIRECTION('center_axis',(1.,0.,0.));
#387=DIRECTION('ref_axis',(0.,1.,0.));
#388=DIRECTION('center_axis',(1.,0.,0.));
#389=DIRECTION('ref_axis',(0.,1.,0.));
#390=DIRECTION('center_axis',(1.,0.,0.));
#391=DIRECTION('ref_axis',(0.,1.,0.));
#392=DIRECTION('center_axis',(1.,0.,0.));
#393=DIRECTION('ref_axis',(0.,1.,0.));
#394=DIRECTION('center_axis',(1.,2.22044604925031E-16,0.));
#395=DIRECTION('ref_axis',(0.,0.,-1.));
#396=DIRECTION('center_axis',(1.,0.,0.));
#397=DIRECTION('ref_axis',(0.,1.,0.));
#398=DIRECTION('center_axis',(0.,0.,1.));
#399=DIRECTION('ref_axis',(1.,0.,0.));
#400=DIRECTION('center_axis',(1.,0.,0.));
#401=DIRECTION('ref_axis',(0.,1.,0.));
#402=DIRECTION('center_axis',(1.,0.,0.));
#403=DIRECTION('ref_axis',(0.,1.,0.));
#404=DIRECTION('center_axis',(1.,0.,0.));
#405=DIRECTION('ref_axis',(0.,1.,0.));
#406=DIRECTION('center_axis',(-1.,0.,0.));
#407=DIRECTION('ref_axis',(0.,1.,0.));
#408=DIRECTION('center_axis',(1.,0.,0.));
#409=DIRECTION('ref_axis',(0.,1.,0.));
#410=DIRECTION('center_axis',(1.,0.,0.));
#411=DIRECTION('ref_axis',(0.,1.,0.));
#412=CARTESIAN_POINT('',(0.,0.,0.));
#413=CARTESIAN_POINT('Origin',(-0.5,0.,0.));
#414=CARTESIAN_POINT('',(-1.,2.067,-2.53126133335085E-16));
#415=CARTESIAN_POINT('Origin',(-1.,0.,0.));
#416=CARTESIAN_POINT('',(0.,3.067,3.75586768717323E-16));
#417=CARTESIAN_POINT('Origin',(0.,0.,0.));
#418=CARTESIAN_POINT('Origin',(-2.75,0.,0.));
#419=CARTESIAN_POINT('',(-5.5,2.067,0.));
#420=CARTESIAN_POINT('Origin',(-5.5,0.,0.));
#421=CARTESIAN_POINT('Origin',(0.,2.125,0.));
#422=CARTESIAN_POINT('',(0.,4.25,0.));
#423=CARTESIAN_POINT('Origin',(0.,0.,0.));
#424=CARTESIAN_POINT('Origin',(-6.12098944976498,0.,0.));
#425=CARTESIAN_POINT('Origin',(-7.5,2.,0.));
#426=CARTESIAN_POINT('',(-8.,1.5,4.58838867375522));
#427=CARTESIAN_POINT('',(-7.,2.5,3.43693177121688));
#428=CARTESIAN_POINT('Origin',(-14.4306079660839,-4.93060796608386,-1.11022302462516E-15));
#429=CARTESIAN_POINT('',(-7.,2.5,-3.43693177121688));
#430=CARTESIAN_POINT('',(-7.,2.5,0.));
#431=CARTESIAN_POINT('',(-8.,1.5,-4.58838867375522));
#432=CARTESIAN_POINT('Origin',(-14.4306079660839,-4.93060796608386,-1.11022302462516E-15));
#433=CARTESIAN_POINT('',(-8.,1.5,0.));
#434=CARTESIAN_POINT('Origin',(-7.,1.5,0.));
#435=CARTESIAN_POINT('',(-9.16506350946111,1.5,-5.29150262212918));
#436=CARTESIAN_POINT('Ctrl Pts',(-9.16506350946111,1.5,-5.29150262212918));
#437=CARTESIAN_POINT('Ctrl Pts',(-8.54107520527601,1.5,-4.91704774113337));
#438=CARTESIAN_POINT('Ctrl Pts',(-8.00000000000189,1.5,-4.58838867375636));
#439=CARTESIAN_POINT('',(-16.,1.5,-5.29150262212918));
#440=CARTESIAN_POINT('',(-12.5825317547306,1.5,-5.29150262212918));
#441=CARTESIAN_POINT('',(-16.,1.5,5.29150262212918));
#442=CARTESIAN_POINT('Origin',(-16.,1.5,0.));
#443=CARTESIAN_POINT('',(-9.16506350946111,1.5,5.29150262212918));
#444=CARTESIAN_POINT('',(-12.5825317547306,1.5,5.29150262212918));
#445=CARTESIAN_POINT('Ctrl Pts',(-8.0000000000019,1.5,4.58838867375637));
#446=CARTESIAN_POINT('Ctrl Pts',(-8.54107520527601,1.5,4.91704774113337));
#447=CARTESIAN_POINT('Ctrl Pts',(-9.16506350946111,1.5,5.29150262212918));
#448=CARTESIAN_POINT('',(-19.3886751345948,1.5,9.70090822399049E-16));
#449=CARTESIAN_POINT('Origin',(-16.,1.5,5.55111512312578E-16));
#450=CARTESIAN_POINT('Origin',(-7.5,-2.,0.));
#451=CARTESIAN_POINT('',(-8.,-1.5,4.58838867375521));
#452=CARTESIAN_POINT('',(-7.,-2.5,3.43693177121688));
#453=CARTESIAN_POINT('Origin',(-14.4306079660838,4.93060796608385,-2.22044604925031E-15));
#454=CARTESIAN_POINT('',(-8.,-1.5,-4.58838867375521));
#455=CARTESIAN_POINT('',(-8.,-1.5,0.));
#456=CARTESIAN_POINT('',(-7.,-2.5,-3.43693177121688));
#457=CARTESIAN_POINT('Origin',(-14.4306079660838,4.93060796608385,-2.22044604925031E-15));
#458=CARTESIAN_POINT('',(-7.,-2.5,0.));
#459=CARTESIAN_POINT('Origin',(-7.,-6.5,0.));
#460=CARTESIAN_POINT('Origin',(-7.,0.,0.));
#461=CARTESIAN_POINT('Origin',(-16.,1.25,5.55111512312578E-16));
#462=CARTESIAN_POINT('',(-19.1,1.,1.75483542627641E-16));
#463=CARTESIAN_POINT('Origin',(-16.,1.,5.55111512312578E-16));
#464=CARTESIAN_POINT('Origin',(-16.,24.1027342289842,5.55111512312578E-16));
#465=CARTESIAN_POINT('',(-12.9,-1.,1.75483542627641E-16));
#466=CARTESIAN_POINT('Origin',(-16.,-1.,5.55111512312578E-16));
#467=CARTESIAN_POINT('Origin',(-16.,-1.25,5.55111512312578E-16));
#468=CARTESIAN_POINT('',(-12.6113248654052,-1.5,9.70090822399049E-16));
#469=CARTESIAN_POINT('Origin',(-16.,-1.5,5.55111512312578E-16));
#470=CARTESIAN_POINT('Origin',(-7.,-1.5,0.));
#471=CARTESIAN_POINT('',(-9.16506350946111,-1.5,5.29150262212918));
#472=CARTESIAN_POINT('Ctrl Pts',(-9.16506350946111,-1.5,5.29150262212918));
#473=CARTESIAN_POINT('Ctrl Pts',(-8.54107520527602,-1.5,4.91704774113337));
#474=CARTESIAN_POINT('Ctrl Pts',(-8.0000000000019,-1.5,4.58838867375637));
#475=CARTESIAN_POINT('',(-16.,-1.5,5.29150262212918));
#476=CARTESIAN_POINT('',(-12.5825317547306,-1.5,5.29150262212918));
#477=CARTESIAN_POINT('',(-16.,-1.5,-5.29150262212918));
#478=CARTESIAN_POINT('Origin',(-16.,-1.5,0.));
#479=CARTESIAN_POINT('',(-9.16506350946111,-1.5,-5.29150262212918));
#480=CARTESIAN_POINT('',(-12.5825317547306,-1.5,-5.29150262212918));
#481=CARTESIAN_POINT('Ctrl Pts',(-8.00000000000189,-1.5,-4.58838867375636));
#482=CARTESIAN_POINT('Ctrl Pts',(-8.54107520527601,-1.5,-4.91704774113337));
#483=CARTESIAN_POINT('Ctrl Pts',(-9.16506350946111,-1.5,-5.29150262212918));
#484=CARTESIAN_POINT('Origin',(-8.08253175473055,0.,0.));
#485=CARTESIAN_POINT('Origin',(-9.16506350946111,0.,0.));
#486=CARTESIAN_POINT('Origin',(-7.,0.,0.));
#487=CARTESIAN_POINT('Origin',(-12.5825317547306,0.,0.));
#488=CARTESIAN_POINT('Origin',(-16.,0.,0.));
#489=CARTESIAN_POINT('Origin',(-7.,6.5,0.));
#490=CARTESIAN_POINT('Origin',(-7.,0.,0.));
#491=CARTESIAN_POINT('Origin',(-16.,8.77316273401213E-16,0.));
#492=CARTESIAN_POINT('Origin',(-16.,0.,0.));
#493=CARTESIAN_POINT('Origin',(-12.5825317547306,0.,0.));
#494=CARTESIAN_POINT('Origin',(-9.16506350946111,0.,0.));
#495=CARTESIAN_POINT('Origin',(-8.08253175473055,0.,0.));
#496=CARTESIAN_POINT('Origin',(-7.,0.,0.));
#497=CARTESIAN_POINT('Origin',(-3.5,0.,0.));
#498=UNCERTAINTY_MEASURE_WITH_UNIT(LENGTH_MEASURE(0.01),#502,
'DISTANCE_ACCURACY_VALUE',
'Maximum model space distance between geometric entities at asserted c
onnectivities');
#499=UNCERTAINTY_MEASURE_WITH_UNIT(LENGTH_MEASURE(1.E-6),#502,
'DISTANCE_ACCURACY_VALUE',
'Maximum model space distance between geometric entities at asserted c
onnectivities');
#500=(
GEOMETRIC_REPRESENTATION_CONTEXT(3)
GLOBAL_UNCERTAINTY_ASSIGNED_CONTEXT((#498))
GLOBAL_UNIT_ASSIGNED_CONTEXT((#502,#505,#503))
REPRESENTATION_CONTEXT('','3D')
);
#501=(
GEOMETRIC_REPRESENTATION_CONTEXT(3)
GLOBAL_UNCERTAINTY_ASSIGNED_CONTEXT((#499))
GLOBAL_UNIT_ASSIGNED_CONTEXT((#502,#505,#503))
REPRESENTATION_CONTEXT('','3D')
);
#502=(
LENGTH_UNIT()
NAMED_UNIT(*)
SI_UNIT(.MILLI.,.METRE.)
);
#503=(
NAMED_UNIT(*)
SI_UNIT($,.STERADIAN.)
SOLID_ANGLE_UNIT()
);
#504=DIMENSIONAL_EXPONENTS(0.,0.,0.,0.,0.,0.,0.);
#505=(
CONVERSION_BASED_UNIT('degree',#507)
NAMED_UNIT(#504)
PLANE_ANGLE_UNIT()
);
#506=(
NAMED_UNIT(*)
PLANE_ANGLE_UNIT()
SI_UNIT($,.RADIAN.)
);
#507=PLANE_ANGLE_MEASURE_WITH_UNIT(PLANE_ANGLE_MEASURE(0.01745329252),#506);
#508=SHAPE_DEFINITION_REPRESENTATION(#509,#510);
#509=PRODUCT_DEFINITION_SHAPE('',$,#512);
#510=SHAPE_REPRESENTATION('',(#278),#500);
#511=PRODUCT_DEFINITION_CONTEXT('part definition',#516,'design');
#512=PRODUCT_DEFINITION('XX1DXXUXXM5NIRO','XX1DXXUXXM5NIRO',#513,#511);
#513=PRODUCT_DEFINITION_FORMATION('',$,#518);
#514=PRODUCT_RELATED_PRODUCT_CATEGORY('XX1DXXUXXM5NIRO',
'XX1DXXUXXM5NIRO',(#518));
#515=APPLICATION_PROTOCOL_DEFINITION('international standard',
'automotive_design',2009,#516);
#516=APPLICATION_CONTEXT(
'Core Data for Automotive Mechanical Design Process');
#517=PRODUCT_CONTEXT('part definition',#516,'mechanical');
#518=PRODUCT('XX1DXXUXXM5NIRO','XX1DXXUXXM5NIRO',$,(#517));
#519=PRESENTATION_STYLE_ASSIGNMENT((#520));
#520=SURFACE_STYLE_USAGE(.BOTH.,#521);
#521=SURFACE_SIDE_STYLE('',(#522));
#522=SURFACE_STYLE_FILL_AREA(#523);
#523=FILL_AREA_STYLE('',(#524));
#524=FILL_AREA_STYLE_COLOUR('',#525);
#525=COLOUR_RGB('',0.956862745098039,0.956862745098039,0.956862745098039);
ENDSEC;
END-ISO-10303-21;
